Jump to content


Strange Terrain


  • Please log in to reply
21 replies to this topic

#21 Up Against The Wall

Up Against The Wall

    Active Member

  • Member
  • 868 posts
  • Gender:Male
  • Location:Chicago
  • Interests:Guitar, snowboarding, drinking good beer
  • sumguitarguy
  • 07 Boardie Award

Posted 06 June 2010 - 11:15 AM

View PostJohnotronz, on Jun 5 2010, 09:33 PM, said:

If you look again at the picture I posted above, you will see that he starts on the 6th fret.  

It's in standard.

So play it in whatever tuning you want, theres not a bunch of open chords in the song so it doesn't matter.
This thread is now officially dead.

Semi Constructive Criticism Cover
http://web.ics.purdue.edu/~jmkovach/semiconcrit.mp3

#22 OliJ

OliJ

    I Don't Post Much

  • Member
  • 140 posts
  • Gender:Male

Posted 07 April 2011 - 04:37 PM

This probably isn't right but this is what I came up with for the intro
I have it tuned a half step down

----7---------8--------7-----8----------2------4--------7-----------------------
----7---------8--------7-----8----------2------4--------7---------------------
----8---------9--------8-----9----------3------5--------8----------------------
----9---------10-------9----10---------4------6--------9------------------------
----9---------10-------9----10---------4------6--------9------------------------
----7---------8--------7-----8---------2-------4--------7--------------------------


-----7-----------------------------------------10/--------------------------
-----------7----------7--8--10--8--7-----------------9/----7/-----5/------
----------------------------------------------------------------------------
-----------------------------------------------------------------------------
----------------------------------------------------------------------------
---------------------------------------------------------------------------

I really dont know what you play after so I just play this on the B string

----12-13-12---14-15-14----17b----17--------------------




0 user(s) are reading this topic

0 members, 0 guests, 0 anonymous users