Jump to content


Get Yours While You Can


  • Please log in to reply
No replies to this topic

#1 Chrono

Chrono

    Animals can see souls.

  • Key Member
  • 1,597 posts
  • Gender:Male
  • Location:Philly
  • Interests:I'll tell you.
  • Facebook Link

Posted 02 December 2011 - 06:32 PM

So this song is a whole step down and here ya go. Should be easy to figure in the rhythm and such.

Verse: "Let my motor run all night long..."
D---------------
A---------------
F---------------
C--------------
G------0-------
D------2-------

D---------------
A---------------
F---------------
C--------------
G------0-------
D------1-------

D---------------
A---------------
F---------------
C--------------
G------0-------
D------0-------

D---------------
A-----  1h3------
F------ 2-----------
C------0-------
G-----(0)-------
D--------------

Pre Chorus: "I've been held up close enough to feel..."

D----- 3--------
A------3--------
F------3--------
C--------------
G--------------
D--------------

D------5--------
A------6--------
F------5--------
C--------------
G--------------
D--------------

D------9--------
A------10--------
F------9--------
C--------------
G--------------
D--------------

Chorus: "Get yours while you can..."

D------5--------
A------6--------
F------7--------
C--------------
G--------------
D--------------

D------0--------
A------5--------
F------6--------
C--------------
G--------------
D--------------
And here we are, fractured and elusive.




0 user(s) are reading this topic

0 members, 0 guests, 0 anonymous users