Jump to content


How It Goes (Acoustic)


  • Please log in to reply
No replies to this topic

#1 strike_face

strike_face

    Newbie

  • New Member
  • 1 posts

Posted 20 January 2012 - 11:23 PM

Artist: Anthony Green
Song: How It Goes (Acoustic)
Tabbed by: Matt Benenati <darkk88[at]gmail[dot]com>

based off this live performance:

Capo 5

It seems so weird to me...
--------------------------------
-----3----------3---------------
-----4--------------------------
-----5----------4---------------
----------------5---------------
-----x----------x---------------


Don't ask us our opinons are insane...
---------------------------------
-----2---------------------------
-----2-----------8---------------
-----2-----------6---------------
-----------------7---------------
-----x-----------x---------------





0 user(s) are reading this topic

0 members, 0 guests, 0 anonymous users