Jump to content
Circa Survive Board
Sign in to follow this  
RyanBlood

She Loves me so tab?

Recommended Posts

awesome :crossfingers: When you do, I'd love to see the tab :bighop:!!!

 

i will definitely post it. i kind of dont have a guitar at the moment, so im trying to use guitar pro to figure it out haha.

Share this post


Link to post
Share on other sites

Ok, so he tunes his guitar to D standard for the recent acoustic shows.

So just one whole step down (from EADGBe to DGCFAd).

easier to hit the higher notes, i guess.

 

SHE LOVES ME SO

 

-CHORDS-

 

2x Intro/verse: (I keep riding...)

 

|---------(0)----

|-7-(5)--(0)-------

|-6--4----6------

|-0--6----7------

|----------0----

|-----------

 

Middle thing: (soon you'll be far...)

 

(little hammer on pull-off thingy on the last two)

|--12--9--7-5----

|--10--9--7-7----

|--11--9--7-7----

|-(12)---------

|-----------

|-----------

 

Pre Chorus: (Just keep those lonely...) a few times

 

|--2----4-------

|--3----5-------

|--4----6-------

|-(4)--(6)------

|-------------

|-------------

 

Chorus: (She loves me so)

|--(0)-------------

|--10------------

|--11------------

|--12------------

|---------------

|----------------

 

Then back to the verse again.

 

This sounds pretty good, i think.

On the verse and chorus, try to have the thinner strings open,

so it gets more "floating". whatever.

 

<3

Share this post


Link to post
Share on other sites
Ok, so he tunes his guitar to D standard for the recent acoustic shows.

So just one whole step down (from EADGBe to DGCFAd).

easier to hit the higher notes, i guess.

 

SHE LOVES ME SO

 

-CHORDS-

 

2x Intro/verse: (I keep riding...)

 

|---------(0)----

|-7-(5)--(0)-------

|-6--4----6------

|-0--6----7------

|----------0----

|-----------

 

Middle thing: (soon you'll be far...)

 

(little hammer on pull-off thingy on the last two)

|--12--9--7-5----

|--10--9--7-7----

|--11--9--7-7----

|-(12)---------

|-----------

|-----------

 

Pre Chorus: (Just keep those lonely...) a few times

 

|--2----4-------

|--3----5-------

|--4----6-------

|-(4)--(6)------

|-------------

|-------------

 

Chorus: (She loves me so)

|--(0)-------------

|--10------------

|--11------------

|--12------------

|---------------

|----------------

 

Then back to the verse again.

 

This sounds pretty good, i think.

On the verse and chorus, try to have the thinner strings open,

so it gets more "floating". whatever.

 

:appl:

 

perfect thanks <3:wub:

Share this post


Link to post
Share on other sites

Create an account or sign in to comment

You need to be a member in order to leave a comment

Create an account

Sign up for a new account in our community. It's easy!

Register a new account

Sign in

Already have an account? Sign in here.

Sign In Now
Sign in to follow this  

×