Jump to content
Circa Survive Board
CanvasandFrame

Ever wonder how it's gonna do down?

Recommended Posts

 

Anyone know this? I'd love to play it, it sounds really simple but I have a bad ear for things like this. Only sounds like 2 chords

don't know the tuning but i used to fiddle with chords like this.

my guess is

 

0 ------------x----------x

0 ------------3----------5

0 or -------- 4---- to---6

2 ------------5----------7

2 ------------(2)--------0

0 ------------0--------- x

Share this post


Link to post
Share on other sites
Capo 4 sounds closer I think.

 

here's a pretty good video... hopefully someone can help me out here

 

 

the verse is easy from what i can surmise:

(capo on 4th or 5th)

 

verse:

----2----0----

----3----3----

----4----0----

----0----4----

----0----5----

----x----x----

 

 

but i really can't tell what he does for the chorus? anyone with a better eye got some input?

Share this post


Link to post
Share on other sites
here's a pretty good video... hopefully someone can help me out here

 

 

the verse is easy from what i can surmise:

(capo on 4th or 5th)

 

verse:

----2----0----

----3----3----

----4----0----

----0----4----

----0----5----

----x----x----

but i really can't tell what he does for the chorus? anyone with a better eye got some input?

 

well after playing around some today i can't decide if its:

 

----2----0----

----3----3----

----4----0----

----0----4----

----0----5----

----x----x----

 

OR

 

----0----0----

----3----3----

----4----0----

----5----4----

----0----5----

----x----x----

 

 

 

and as for the chorus, i don't think it sounds right, but i've been playing it like this:

 

----0----0----

----2----0----

----2----0----

----2----9----

----0----7----

----x----x----

Share this post


Link to post
Share on other sites

Verse:

 

----0----0----

----3----3----

----4----0----

----5----4----

----0----5----

----x----x----

 

Chorus:

 

----0----0----

----2----0----

----2----7----

----2----5----

----0----7----

----x----x----

Share this post


Link to post
Share on other sites

Create an account or sign in to comment

You need to be a member in order to leave a comment

Create an account

Sign up for a new account in our community. It's easy!

Register a new account

Sign in

Already have an account? Sign in here.

Sign In Now

×