Jump to content
Circa Survive Board
Sign in to follow this  
mostdangerouscirca

I Felt Free/Dyed in the Wool

Recommended Posts

So..I figured out both of the opening leads for the songs. I don't know the rest of the songs, but I'm working on them. Here you go. Feel free to point out errors and what not.

 

I Felt Free

Tuning: Half-Step Down

 

e-------------------------------------------------

B----------6--5~ 6--5--------------3-----------

G------5----------------5/-----4-------5--4-----

D--/7----7------------------5-----5-----------5/

A-------------------------------------------------

E--------------------------------------------------

 

Repeat twice and then slide into the 7 and let it ring.

 

Dyed in the Wool

Tuning: Half-Step Down

 

e------12---8-------12---8-------------------

B----------------------------------------------

G--10---------10--------------9~ 7~ 9~ 7~

D----------------------------------------------

A----------------------------------------------

E-----------------------------------------------

Share this post


Link to post
Share on other sites

Create an account or sign in to comment

You need to be a member in order to leave a comment

Create an account

Sign up for a new account in our community. It's easy!

Register a new account

Sign in

Already have an account? Sign in here.

Sign In Now
Sign in to follow this  

×