Jump to content
Circa Survive Board
Sign in to follow this  
Chrono

Blood Song

Recommended Posts

This one is also a whole step down. Didn't feel like putting the "0's" was necessary, just figure that and the rhythm and such and you should be good! I put a few lines of the lyrics to show the first changes to the next chord.

 

Verse: "Who's gonna bury in the well."

 

D---------------

A---------------

F---------------

C--------------

G------2-------

D------3-------

 

D---------------

A---------------

F---------------

C------2-------

G------3-------

D--------------

 

"Nobody knew him he had only arrived."

 

D---------------

A---------------

F---------------

C--------------

G------0-------

D------2-------

 

D---------------

A---------------

F---------------

C------2-------

G------2-------

D--------------

 

Prechorus: "And I'm not giving..."

 

D---------------

A------2--------

F------2--------

C------2-------

G--------------

D--------------

 

Chorus: "these orphans away."

 

D---------------

A------1-------

F---------------

C------2-------

G------3-------

D--------------

Share this post


Link to post
Share on other sites
This one is also a whole step down. Didn't feel like putting the "0's" was necessary, just figure that and the rhythm and such and you should be good! I put a few lines of the lyrics to show the first changes to the next chord.

 

Verse: "Who's gonna bury in the well."

 

D---------------

A---------------

F---------------

C--------------

G------2-------

D------3-------

 

D---------------

A---------------

F---------------

C------2-------

G------3-------

D--------------

 

"Nobody knew him he had only arrived."

 

D---------------

A---------------

F---------------

C--------------

G------0-------

D------2-------

 

D---------------

A---------------

F---------------

C------2-------

G------2-------

D--------------

 

Prechorus: "And I'm not giving..."

 

D---------------

A------2--------

F------2--------

C------2-------

G--------------

D--------------

 

Chorus: "these orphans away."

 

D---------------

A------1-------

F---------------

C------2-------

G------3-------

D--------------

 

 

 

Thank you so much! I truly appreciate this! :(

Share this post


Link to post
Share on other sites

Create an account or sign in to comment

You need to be a member in order to leave a comment

Create an account

Sign up for a new account in our community. It's easy!

Register a new account

Sign in

Already have an account? Sign in here.

Sign In Now
Sign in to follow this  

×