Jump to content
Circa Survive Board
Sign in to follow this  
Revestianie Orange

[REQ] States - Waiting For Too Long ft. Anthony Green tabs Tab

Recommended Posts

Tuning I'm using is:

DGEGBE

 

e|---------------------------------------------------------------|

B|------------------------------------------------------------|

G|---9------11----9----7------7-----------------------------------|

E|---0-------0-----0----0------7------------------------------------|

G|---0-------0----0-----0-------------------------------------------|

D|---------------------------------------------------------------|

Switch back and forth between the last two chords, hammering onto the 5th fret on the D string (E string) in this case.

e|--------------------------------------------0----0------------------|

B|-------------------------------------------0----0---------------|

G|---9------11----9----7------7---(5)----0----0------------------------|

E|---0-------0-----0----0------7---(5)----0----5-------------------------|

G|---0-------0----0-----0------------------5----5------------------------|

D|---------------------------------------------------------------|

 

Chorus:

 

e|----0-------0-----0-------0--------------------------------------|

B|---0-------0-----0------0-----------------------------------|

G|---7------11---11------0-----------------------------------|

E|---7------10---10------0----------------------------------|

G|---0------0----12------5-------------------------------------|

D|---0------0-----0-------0---------------------------------------|

 

Bridge?:

e|----------------------------------------------------------------|

B|------------------------------------------------------------|

G|---12------4-----5-----------------------------------------|

E|----0-------0-----0----------------------------------------|

G|----0-------0-----0--------------------------------------------|

D|---12------2-----5----------------------------------------------|

 

Slow strummed chords:

e|---------------------------------------------------------------|

B|------------------------------------------------------------|

G|---4------5-------------------------------------------------|

E|----2-----0--------------------------------------------------|

G|----0-----5----------------------------------------------------|

D|----0-----0------------------------------------------------------|

 

Sorry, if the alignment is off. Lemme know if/what's wrong.

Share this post


Link to post
Share on other sites

Tuning I'm using is:

DGEGBE

 

e|---------------------------------------------------------------|

B|------------------------------------------------------------|

G|---9------11----9----7------7-----------------------------------|

E|---0-------0-----0----0------7------------------------------------|

G|---0-------0----0-----0-------------------------------------------|

D|---------------------------------------------------------------|

Switch back and forth between the last two chords, hammering onto the 5th fret on the D string (E string) in this case.

e|--------------------------------------------0----0------------------|

B|-------------------------------------------0----0---------------|

G|---9------11----9----7------7---(5)----0----0------------------------|

E|---0-------0-----0----0------7---(5)----0----5-------------------------|

G|---0-------0----0-----0------------------5----5------------------------|

D|---------------------------------------------------------------|

 

Chorus:

 

e|----0-------0-----0-------0--------------------------------------|

B|---0-------0-----0------0-----------------------------------|

G|---7------11---11------0-----------------------------------|

E|---7------10---10------0----------------------------------|

G|---0------0----12------5-------------------------------------|

D|---0------0-----0-------0---------------------------------------|

 

Bridge?:

e|----------------------------------------------------------------|

B|------------------------------------------------------------|

G|---12------4-----5-----------------------------------------|

E|----0-------0-----0----------------------------------------|

G|----0-------0-----0--------------------------------------------|

D|---12------2-----5----------------------------------------------|

 

Slow strummed chords:

e|---------------------------------------------------------------|

B|------------------------------------------------------------|

G|---4------5-------------------------------------------------|

E|----2-----0--------------------------------------------------|

G|----0-----5----------------------------------------------------|

D|----0-----0------------------------------------------------------|

 

Sorry, if the alignment is off. Lemme know if/what's wrong.

HOW DID YOU FIGURE THAT OUT?

Seriously, thats amazing. Tell me your secrets.

 

Please?

Share this post


Link to post
Share on other sites

Create an account or sign in to comment

You need to be a member in order to leave a comment

Create an account

Sign up for a new account in our community. It's easy!

Register a new account

Sign in

Already have an account? Sign in here.

Sign In Now
Sign in to follow this  

×